Har du någon fråga eller söker du info om gitarrer, gitarrister eller gitarrprylar?
Besök Playbacks Forum!

Öppna forumet i ny sida...

tabulaturer med skalor

 

Mina egna skalor

Här hittar du några skalor som jag använder ofta själv. Då jag inte vet var de kommer ifrån eller om dom ens har giltiga namn, så har jag skrivit ner dom som nya tabulaturer - och gett dom passande namn med tanke vem som inspirerat mig till respektive skala.

Hur du skall spela efter skalorna.

Spela varje skala från början till slut endast, då det är upp- och nergångar.

Namn på skala Start-ton Tabulatur
Neo Church Minor, uppgång till E-ackord A
Satri Walk Minor, nergång till E-ackord H
Jazzy Major, uppgång till C# F#
Min arpeggio-övning som även finns som filmklipp.

(Tabulaturen nerskriven av Timpa, en god forumkollega till mig på Playbacks Forum...)
D#


Del 1

E||------|----------9-12-9~------------------------------|
B||------|-------10--------10-------------12-14-12~------|
G||------|--9-11--------------11-------13----------13----|
D||------|-----------------------11-14----------------14-|
A||------|-----------------------------------------------|
E||------|-----------------------------------------------|

Del 2

-------------------------------------------------|---||
----------------------------------10-12-10-------|---||
-----------11-13-11~-----------11----------11----|---||
--------13----------13----9-12----------------12-|---||
--11-14----------------14------------------------|---||
-------------------------------------------------|---||

     
  Start    |    Riff & Licks    |    Skalor    |    Ackord    |    Övrigt    |    Forum    |    Om Playback Copyright (c) 2005 Playback.nu. Kontakta oss